ISO-10303-21;
HEADER;
FILE_DESCRIPTION (( 'STEP AP203' ),
    '1' );
FILE_NAME ('MHWP-25.4-800.STEP',
    '2020-12-22T09:27:14',
    ( '' ),
    ( '' ),
    'SwSTEP 2.0',
    'SolidWorks 2020',
    '' );
FILE_SCHEMA (( 'CONFIG_CONTROL_DESIGN' ));
ENDSEC;

DATA;
#1 = DIRECTION ( 'NONE',  ( 0.000000000000000000, 0.000000000000000000, 1.000000000000000000 ) ) ;
#2 = APPLICATION_PROTOCOL_DEFINITION ( 'international standard', 'config_control_design', 1994, #49 ) ;
#3 = CYLINDRICAL_SURFACE ( 'NONE', #89, 12.69999999999999929 ) ;
#4 = PERSON_AND_ORGANIZATION ( #137, #133 ) ;
#5 = CALENDAR_DATE ( 2020, 22, 12 ) ;
#6 = VECTOR ( 'NONE', #41, 1000.000000000000000 ) ;
#7 = DATE_AND_TIME ( #38, #136 ) ;
#8 = CARTESIAN_POINT ( 'NONE',  ( 0.000000000000000000, 1.555301434917138433E-15, -12.69999999999999929 ) ) ;
#9 = VERTEX_POINT ( 'NONE', #87 ) ;
#10 = CC_DESIGN_PERSON_AND_ORGANIZATION_ASSIGNMENT ( #19, #131, ( #163 ) ) ;
#11 = EDGE_LOOP ( 'NONE', ( #138, #24, #145, #28 ) ) ;
#12 = DIRECTION ( 'NONE',  ( 0.000000000000000000, 0.000000000000000000, -1.000000000000000000 ) ) ;
#13 = CARTESIAN_POINT ( 'NONE',  ( 1.999999999999999112, 12.69999999999999929, 0.000000000000000000 ) ) ;
#14 = FACE_OUTER_BOUND ( 'NONE', #90, .T. ) ;
#15 = CARTESIAN_POINT ( 'NONE',  ( -1.187907395172932594E-15, 0.000000000000000000, 0.000000000000000000 ) ) ;
#16 = PLANE ( 'NONE',  #67 ) ;
#17 = CALENDAR_DATE ( 2020, 22, 12 ) ;
#18 = LOCAL_TIME ( 17, 27, 14.00000000000000000, #118 ) ;
#19 = PERSON_AND_ORGANIZATION ( #137, #133 ) ;
#20 = PERSON_AND_ORGANIZATION_ROLE ( 'design_supplier' ) ;
#21 = PRODUCT_DEFINITION_SHAPE ( 'NONE', 'NONE',  #163 ) ;
#22 = UNCERTAINTY_MEASURE_WITH_UNIT (LENGTH_MEASURE( 1.000000000000000082E-05 ), #29, 'distance_accuracy_value', 'NONE');
#23 = SECURITY_CLASSIFICATION_LEVEL ( 'unclassified' ) ;
#24 = ORIENTED_EDGE ( 'NONE', *, *, #25, .T. ) ;
#25 = EDGE_CURVE ( 'NONE', #110, #76, #112, .T. ) ;
#26 = APPROVAL_PERSON_ORGANIZATION ( #108, #43, #96 ) ;
#27 = ORIENTED_EDGE ( 'NONE', *, *, #129, .T. ) ;
#28 = ORIENTED_EDGE ( 'NONE', *, *, #33, .F. ) ;
#29 =( LENGTH_UNIT ( ) NAMED_UNIT ( * ) SI_UNIT ( .MILLI., .METRE. ) );
#30 = CARTESIAN_POINT ( 'NONE',  ( 0.000000000000000000, 0.000000000000000000, 0.000000000000000000 ) ) ;
#31 = MECHANICAL_CONTEXT ( 'NONE', #88, 'mechanical' ) ;
#32 = DIRECTION ( 'NONE',  ( -1.000000000000000000, -0.000000000000000000, -0.000000000000000000 ) ) ;
#33 = EDGE_CURVE ( 'NONE', #9, #122, #73, .T. ) ;
#34 = AXIS2_PLACEMENT_3D ( 'NONE', #65, #32, #114 ) ;
#35 = APPROVAL_STATUS ( 'not_yet_approved' ) ;
#36 = AXIS2_PLACEMENT_3D ( 'NONE', #63, #161, #150 ) ;
#37 = PRODUCT ( 'MHWP-25.4-800', 'MHWP-25.4-800', '', ( #31 ) ) ;
#38 = CALENDAR_DATE ( 2020, 22, 12 ) ;
#39 = SHAPE_DEFINITION_REPRESENTATION ( #21, #95 ) ;
#40 = AXIS2_PLACEMENT_3D ( 'NONE', #30, #47, #1 ) ;
#41 = DIRECTION ( 'NONE',  ( -1.000000000000000000, -0.000000000000000000, -0.000000000000000000 ) ) ;
#42 = ORIENTED_EDGE ( 'NONE', *, *, #97, .F. ) ;
#43 = APPROVAL ( #35, 'UNSPECIFIED' ) ;
#44 = CARTESIAN_POINT ( 'NONE',  ( 1.999999999999998224, 0.000000000000000000, 0.000000000000000000 ) ) ;
#45 = CARTESIAN_POINT ( 'NONE',  ( 0.000000000000000000, 0.000000000000000000, 0.000000000000000000 ) ) ;
#46 = CARTESIAN_POINT ( 'NONE',  ( 1.999999999999998224, 1.555301434917138433E-15, -12.69999999999999929 ) ) ;
#47 = DIRECTION ( 'NONE',  ( -1.000000000000000000, -0.000000000000000000, -0.000000000000000000 ) ) ;
#48 = APPROVAL_DATE_TIME ( #81, #43 ) ;
#49 = APPLICATION_CONTEXT ( 'configuration controlled 3d designs of mechanical parts and assemblies' ) ;
#50 = PRODUCT_RELATED_PRODUCT_CATEGORY ( 'detail', '', ( #37 ) ) ;
#51 = PERSON_AND_ORGANIZATION ( #137, #133 ) ;
#52 = EDGE_CURVE ( 'NONE', #9, #110, #165, .T. ) ;
#53 = DESIGN_CONTEXT ( 'detailed design', #49, 'design' ) ;
#54 = APPROVAL_ROLE ( '' ) ;
#55 = CARTESIAN_POINT ( 'NONE',  ( 0.000000000000000000, 0.000000000000000000, 12.69999999999999929 ) ) ;
#56 = LOCAL_TIME ( 17, 27, 14.00000000000000000, #143 ) ;
#57 = DIRECTION ( 'NONE',  ( 0.000000000000000000, 0.000000000000000000, 1.000000000000000000 ) ) ;
#58 = AXIS2_PLACEMENT_3D ( 'NONE', #120, #173, #57 ) ;
#59 = APPROVAL_PERSON_ORGANIZATION ( #132, #84, #170 ) ;
#60 = CARTESIAN_POINT ( 'NONE',  ( -1.187907395172932594E-15, 0.000000000000000000, 12.69999999999999929 ) ) ;
#61 = APPLICATION_PROTOCOL_DEFINITION ( 'international standard', 'config_control_design', 1994, #88 ) ;
#62 = AXIS2_PLACEMENT_3D ( 'NONE', #94, #128, #12 ) ;
#63 = CARTESIAN_POINT ( 'NONE',  ( 0.000000000000000000, 0.000000000000000000, 0.000000000000000000 ) ) ;
#64 = ADVANCED_FACE ( 'NONE', ( #149 ), #3, .T. ) ;
#65 = CARTESIAN_POINT ( 'NONE',  ( -1.187907395172932594E-15, 0.000000000000000000, 0.000000000000000000 ) ) ;
#66 = CYLINDRICAL_SURFACE ( 'NONE', #40, 12.69999999999999929 ) ;
#67 = AXIS2_PLACEMENT_3D ( 'NONE', #13, #115, #160 ) ;
#68 = COORDINATED_UNIVERSAL_TIME_OFFSET ( 8, 0, .AHEAD. ) ;
#69 = DATE_TIME_ROLE ( 'creation_date' ) ;
#70 = DATE_AND_TIME ( #156, #107 ) ;
#71 = APPROVAL_STATUS ( 'not_yet_approved' ) ;
#72 = PERSON_AND_ORGANIZATION ( #137, #133 ) ;
#73 = LINE ( 'NONE', #55, #6 ) ;
#74 = APPROVAL ( #71, 'UNSPECIFIED' ) ;
#75 = ORIENTED_EDGE ( 'NONE', *, *, #93, .F. ) ;
#76 = VERTEX_POINT ( 'NONE', #125 ) ;
#77 = ORIENTED_EDGE ( 'NONE', *, *, #97, .T. ) ;
#78 = PERSON_AND_ORGANIZATION ( #137, #133 ) ;
#79 = APPROVAL_PERSON_ORGANIZATION ( #51, #74, #54 ) ;
#80 = PERSON_AND_ORGANIZATION ( #137, #133 ) ;
#81 = DATE_AND_TIME ( #5, #18 ) ;
#82 = DATE_TIME_ROLE ( 'classification_date' ) ;
#83 = APPROVAL_DATE_TIME ( #70, #74 ) ;
#84 = APPROVAL ( #117, 'UNSPECIFIED' ) ;
#85 = CLOSED_SHELL ( 'NONE', ( #121, #64, #86, #111 ) ) ;
#86 = ADVANCED_FACE ( 'NONE', ( #113 ), #16, .F. ) ;
#87 = CARTESIAN_POINT ( 'NONE',  ( 1.999999999999998224, 0.000000000000000000, 12.69999999999999929 ) ) ;
#88 = APPLICATION_CONTEXT ( 'configuration controlled 3d designs of mechanical parts and assemblies' ) ;
#89 = AXIS2_PLACEMENT_3D ( 'NONE', #45, #124, #92 ) ;
#90 = EDGE_LOOP ( 'NONE', ( #27, #109 ) ) ;
#91 =( NAMED_UNIT ( * ) PLANE_ANGLE_UNIT ( ) SI_UNIT ( $, .RADIAN. ) );
#92 = DIRECTION ( 'NONE',  ( 0.000000000000000000, 0.000000000000000000, 1.000000000000000000 ) ) ;
#93 = EDGE_CURVE ( 'NONE', #76, #122, #153, .T. ) ;
#94 = CARTESIAN_POINT ( 'NONE',  ( -5.939536975864662969E-16, 12.69999999999999929, 0.000000000000000000 ) ) ;
#95 = ADVANCED_BREP_SHAPE_REPRESENTATION ( 'MHWP-25.4-800', ( #126, #36 ), #154 ) ;
#96 = APPROVAL_ROLE ( '' ) ;
#97 = EDGE_CURVE ( 'NONE', #110, #9, #99, .T. ) ;
#98 = CC_DESIGN_PERSON_AND_ORGANIZATION_ASSIGNMENT ( #72, #130, ( #175 ) ) ;
#99 = CIRCLE ( 'NONE', #135, 12.69999999999999929 ) ;
#100 = CC_DESIGN_SECURITY_CLASSIFICATION ( #152, ( #175 ) ) ;
#101 = EDGE_LOOP ( 'NONE', ( #174, #42 ) ) ;
#102 = PLANE ( 'NONE',  #62 ) ;
#103 = DIRECTION ( 'NONE',  ( -1.000000000000000000, -0.000000000000000000, -0.000000000000000000 ) ) ;
#104 = FACE_OUTER_BOUND ( 'NONE', #11, .T. ) ;
#105 = CC_DESIGN_DATE_AND_TIME_ASSIGNMENT ( #166, #69, ( #163 ) ) ;
#106 = PERSON_AND_ORGANIZATION_ROLE ( 'classification_officer' ) ;
#107 = LOCAL_TIME ( 17, 27, 14.00000000000000000, #68 ) ;
#108 = PERSON_AND_ORGANIZATION ( #137, #133 ) ;
#109 = ORIENTED_EDGE ( 'NONE', *, *, #93, .T. ) ;
#110 = VERTEX_POINT ( 'NONE', #46 ) ;
#111 = ADVANCED_FACE ( 'NONE', ( #14 ), #102, .F. ) ;
#112 = LINE ( 'NONE', #8, #167 ) ;
#113 = FACE_OUTER_BOUND ( 'NONE', #101, .T. ) ;
#114 = DIRECTION ( 'NONE',  ( 0.000000000000000000, 0.000000000000000000, 1.000000000000000000 ) ) ;
#115 = DIRECTION ( 'NONE',  ( -1.000000000000000000, 0.000000000000000000, -0.000000000000000000 ) ) ;
#116 = CALENDAR_DATE ( 2020, 22, 12 ) ;
#117 = APPROVAL_STATUS ( 'not_yet_approved' ) ;
#118 = COORDINATED_UNIVERSAL_TIME_OFFSET ( 8, 0, .AHEAD. ) ;
#119 = COORDINATED_UNIVERSAL_TIME_OFFSET ( 8, 0, .AHEAD. ) ;
#120 = CARTESIAN_POINT ( 'NONE',  ( 1.999999999999998224, 0.000000000000000000, 0.000000000000000000 ) ) ;
#121 = ADVANCED_FACE ( 'NONE', ( #104 ), #66, .T. ) ;
#122 = VERTEX_POINT ( 'NONE', #60 ) ;
#123 = CIRCLE ( 'NONE', #157, 12.69999999999999929 ) ;
#124 = DIRECTION ( 'NONE',  ( -1.000000000000000000, -0.000000000000000000, -0.000000000000000000 ) ) ;
#125 = CARTESIAN_POINT ( 'NONE',  ( -1.187907395172932594E-15, 1.555301434917138433E-15, -12.69999999999999929 ) ) ;
#126 = MANIFOLD_SOLID_BREP ( 'Ðý×', #85 ) ;
#127 = PERSON_AND_ORGANIZATION_ROLE ( 'design_owner' ) ;
#128 = DIRECTION ( 'NONE',  ( 1.000000000000000000, 0.000000000000000000, 0.000000000000000000 ) ) ;
#129 = EDGE_CURVE ( 'NONE', #122, #76, #123, .T. ) ;
#130 = PERSON_AND_ORGANIZATION_ROLE ( 'creator' ) ;
#131 = PERSON_AND_ORGANIZATION_ROLE ( 'creator' ) ;
#132 = PERSON_AND_ORGANIZATION ( #137, #133 ) ;
#133 = ORGANIZATION ( 'UNSPECIFIED', 'UNSPECIFIED', '' ) ;
#134 = EDGE_LOOP ( 'NONE', ( #146, #77, #172, #75 ) ) ;
#135 = AXIS2_PLACEMENT_3D ( 'NONE', #44, #103, #162 ) ;
#136 = LOCAL_TIME ( 17, 27, 14.00000000000000000, #144 ) ;
#137 = PERSON ( 'UNSPECIFIED', 'UNSPECIFIED', 'UNSPECIFIED', ('UNSPECIFIED'), ('UNSPECIFIED'), ('UNSPECIFIED') ) ;
#138 = ORIENTED_EDGE ( 'NONE', *, *, #52, .T. ) ;
#139 = DIRECTION ( 'NONE',  ( -1.000000000000000000, -0.000000000000000000, -0.000000000000000000 ) ) ;
#140 =( NAMED_UNIT ( * ) SI_UNIT ( $, .STERADIAN. ) SOLID_ANGLE_UNIT ( ) );
#141 = LOCAL_TIME ( 17, 27, 14.00000000000000000, #119 ) ;
#142 = CC_DESIGN_PERSON_AND_ORGANIZATION_ASSIGNMENT ( #4, #106, ( #152 ) ) ;
#143 = COORDINATED_UNIVERSAL_TIME_OFFSET ( 8, 0, .AHEAD. ) ;
#144 = COORDINATED_UNIVERSAL_TIME_OFFSET ( 8, 0, .AHEAD. ) ;
#145 = ORIENTED_EDGE ( 'NONE', *, *, #129, .F. ) ;
#146 = ORIENTED_EDGE ( 'NONE', *, *, #25, .F. ) ;
#147 = DIRECTION ( 'NONE',  ( 0.000000000000000000, 0.000000000000000000, 1.000000000000000000 ) ) ;
#148 = CC_DESIGN_APPROVAL ( #84, ( #175 ) ) ;
#149 = FACE_OUTER_BOUND ( 'NONE', #134, .T. ) ;
#150 = DIRECTION ( 'NONE',  ( 1.000000000000000000, 0.000000000000000000, 0.000000000000000000 ) ) ;
#151 = DIRECTION ( 'NONE',  ( -1.000000000000000000, -0.000000000000000000, -0.000000000000000000 ) ) ;
#152 = SECURITY_CLASSIFICATION ( '', '', #23 ) ;
#153 = CIRCLE ( 'NONE', #34, 12.69999999999999929 ) ;
#154 =( GEOMETRIC_REPRESENTATION_CONTEXT ( 3 ) GLOBAL_UNCERTAINTY_ASSIGNED_CONTEXT ( ( #22 ) ) GLOBAL_UNIT_ASSIGNED_CONTEXT ( ( #29, #91, #140 ) ) REPRESENTATION_CONTEXT ( 'NONE', 'WORKASPACE' ) );
#155 = APPROVAL_DATE_TIME ( #7, #84 ) ;
#156 = CALENDAR_DATE ( 2020, 22, 12 ) ;
#157 = AXIS2_PLACEMENT_3D ( 'NONE', #15, #151, #147 ) ;
#158 = CC_DESIGN_APPROVAL ( #74, ( #163 ) ) ;
#159 = CC_DESIGN_PERSON_AND_ORGANIZATION_ASSIGNMENT ( #78, #127, ( #37 ) ) ;
#160 = DIRECTION ( 'NONE',  ( -0.000000000000000000, 0.000000000000000000, 1.000000000000000000 ) ) ;
#161 = DIRECTION ( 'NONE',  ( 0.000000000000000000, 0.000000000000000000, 1.000000000000000000 ) ) ;
#162 = DIRECTION ( 'NONE',  ( 0.000000000000000000, 0.000000000000000000, 1.000000000000000000 ) ) ;
#163 = PRODUCT_DEFINITION ( 'UNKNOWN', '', #175, #53 ) ;
#164 = DATE_AND_TIME ( #116, #141 ) ;
#165 = CIRCLE ( 'NONE', #58, 12.69999999999999929 ) ;
#166 = DATE_AND_TIME ( #17, #56 ) ;
#167 = VECTOR ( 'NONE', #139, 1000.000000000000000 ) ;
#168 = CC_DESIGN_DATE_AND_TIME_ASSIGNMENT ( #164, #82, ( #152 ) ) ;
#169 = CC_DESIGN_APPROVAL ( #43, ( #152 ) ) ;
#170 = APPROVAL_ROLE ( '' ) ;
#171 = CC_DESIGN_PERSON_AND_ORGANIZATION_ASSIGNMENT ( #80, #20, ( #175 ) ) ;
#172 = ORIENTED_EDGE ( 'NONE', *, *, #33, .T. ) ;
#173 = DIRECTION ( 'NONE',  ( -1.000000000000000000, -0.000000000000000000, -0.000000000000000000 ) ) ;
#174 = ORIENTED_EDGE ( 'NONE', *, *, #52, .F. ) ;
#175 = PRODUCT_DEFINITION_FORMATION_WITH_SPECIFIED_SOURCE ( 'ANY', '', #37, .NOT_KNOWN. ) ;
ENDSEC;
END-ISO-10303-21;
